Mumford & Sons Official Forum
Exclusive Updates Official Site Buy Music Surf Safe
in

The Tab/Music For Banjo

Last post 08-15-2011 11:11 PM by LadyGoodman. 17 replies.
Page 1 of 2 (18 items) 1 2 Next >
Sort Posts: Previous Next
  • 12-05-2009 12:49 PM

    The Tab/Music For Banjo

    Hello, I'm Writing to ask for the tab/music for some of Mumford and Sons songs because my brother plays the guitar and i play the banjo

    i was wondering does anybody have the tab for the banjo or can someone show me where to get it

     

    Thanks Very mUch

  • 01-07-2010 6:09 PM In reply to

    Re: The Tab/Music For Banjo

    Hi, I'm looking for any Bano tablature as well....must be somebody out there with the knowledge...

     

    Have a look on Banjo Hangout Bluegrass banjo. Someone has posted a tab for Lionman fairly short but you might find it useful

     

    Sons of Wallace

    Filed under:
  • 02-11-2010 3:48 PM In reply to

    Re: The Tab/Music For Banjo

    Hey, yeah im looking for the same, iv got a tab for Lion Man, got it through Guitar Pro, but me and a couple of friends are trying to do a cover of The Cave sometime soon and since im fairly new to the banjo i cant figure out the finger picking or exact chords... been looking at the YouTube videos but its too fast ... anyone know where a tab for The Cave can be found?

     

    Cheers

  • 04-05-2010 12:05 AM In reply to

    Re: The Tab/Music For Banjo

    i know i must sound incredibly stupid, but what sort of banjo do they play? im almost certain its a four string, but i just thought id check......
  • 04-05-2010 1:22 PM In reply to

    Re: The Tab/Music For Banjo


    nah its definately 5 string banjo, saw them in glasgow last month :)
  • 04-08-2010 12:17 AM In reply to

    Re: The Tab/Music For Banjo

    THANK YOU!!!!!!!!
  • 06-18-2010 5:02 PM In reply to

    • nuls
    • Not Ranked
    • Joined on 03-01-2010
    • Posts 3

    Banjo Tabs (please!!)

    Hello!

    I am an absolute banjo beginner and would deeply appreciate banjo tabs for any of the Mumford & Sons songs! I think it would make my life to be able to play a song I recognize and love (apart from Yankee Doodle - not that I love Yankee Doodle....). Would love to give it a go anyway.....what I lack in skill I make up for in enthusiasm!

    Cheers

    nuala x

  • 07-05-2010 1:10 PM In reply to

    Re: Banjo Tabs (please!!)

    Well nuala, im in the same boat as ye.

    If i get ant tabs il pass them ure way bu the best one ive found for The Cave sofar is

    I added a capo to the first fret.
    Am´╗┐ C x3
    G C
    Chorus
    C F C x2
    F C G
    Am F C x2
    F C G

    Hope this helps

  • 07-20-2010 1:53 AM In reply to

    Re: Banjo Tabs (please!!)

    I got some for Little Lion man, I have NO clue what tuning he is using. 

     

    chorus
    .....Am.....................................F
    D|-----2------------2---------2--|-------3----------3-----------3--|
    B|---------------------------------|----------------------------------|
    G|--2----------2-----------2-----|---2----------2----------2-------|
    D|--------------------------------|-----------------------------------|
    G|---------0------------0--------|------------0-----------0---------|

    .....C
    D|-----2------------2---------2--|-------2----------2-----------2--|
    B|---------------------------------|----------------------------------|
    G|--0----------0-----------0-----|---0----------0----------0-------|
    D|--------------------------------|-----------------------------------|
    G|---------0------------0--------|------------0-----------0---------|

    play 3 times, then:-

    .....G
    D|-----0------------0---------0--|-------0----------0-----------0--|
    B|---------------------------------|----------------------------------|
    G|--0----------0-----------0-----|---0----------0----------0-------|
    D|--------------------------------|-----------------------------------|
    G|---------0------------0--------|------------0-----------0---------|


    D|-----0------------0---------0--|-------0----------0-----------0--|
    B|---------------------------------|----------------------------------|
    G|--0----------0-----------0-----|---0----------0----------0-------|
    D|--------------------------------|-----------------------------------|
    G|---------0------------0--------|------------0-----------0---------|

  • 11-12-2010 7:04 PM In reply to

    • Macheeoo
    • Top 150 Contributor
    • Joined on 09-18-2010
    • Minnesota, USA
    • Posts 31

    Re: Banjo Tabs (please!!)

    This tab above is right but I think he forgot to mention that this is CAPO 5 on the banjo!!!

    Here are the chords I think they are using... Strum them at the beginning when the banjo comes in - 0:14M

    Am....... F..........C..........G
    d|--2-------3-------2--------0----------------------------------------------|
    b|--1-------1-------1--------0----------------------------------------------|
    g|--2-------2-------0--------0----------------------------------------------|
    D|--0-------0-------0--------0----------------------------------------------|
    G|--0-------0-------0--------0----------------------------------------------|

    the the chorus is the picking pattern above~

    Am.....................F..............C
    It was not your fault but mine
    Am.....................F..............C
    And it was your heart on the line
    Am.....................F..............C
    I really f**ked it up this time
    G
    didn't I my dear-

    Keep my eyes to serve and hands to learn.
  • 12-16-2010 6:53 PM In reply to

    Re: Banjo Tabs (please!!)

     would you use a basic forward roll with these cords for the Cave? Thank you :)

    amy

  • 06-10-2011 10:31 PM In reply to

    Re: The Tab/Music For Banjo

     Winston Marshall plays on a goldtone electric 5 - string banjo, it ranges from around 500 - 700$ type it in on googleimages, its the first thing to pop up

  • 07-02-2011 2:54 AM In reply to

    Re: The Tab/Music For Banjo

    Hey BluegrassBanjo, I just posted a lesson for "The Cave", there is a link in the description for the tab. Next week I'll be doing "Little Lion Man", and then "Roll Away Your Stone". http://www.youtube.com/watch?v=k0EgF08sH9A
  • 07-02-2011 3:03 AM In reply to

    Re: Banjo Tabs (please!!)

    Hey Gibsona25, Here's a youtube lesson for The Cave, the tab is in the description box. The Cave Banjo Lesson
  • 08-02-2011 6:48 PM In reply to

    Re: Banjo Tabs (please!!)

    Keep em commin!!! These are the best tabs out there! How do you get so spot on??
Page 1 of 2 (18 items) 1 2 Next >
Powered by Community Server (Commercial Edition), by Telligent Systems